ISO-10303-21;
HEADER;
FILE_DESCRIPTION (( 'STEP AP203' ),
    '1' );
FILE_NAME ('MHWP-12.7-514.5.STEP',
    '2020-12-22T09:25:00',
    ( '' ),
    ( '' ),
    'SwSTEP 2.0',
    'SolidWorks 2020',
    '' );
FILE_SCHEMA (( 'CONFIG_CONTROL_DESIGN' ));
ENDSEC;

DATA;
#1 = PERSON_AND_ORGANIZATION ( #47, #38 ) ;
#2 = EDGE_CURVE ( 'NONE', #116, #144, #108, .T. ) ;
#3 = APPROVAL_ROLE ( '' ) ;
#4 = CIRCLE ( 'NONE', #167, 6.349999999999999645 ) ;
#5 = FACE_OUTER_BOUND ( 'NONE', #94, .T. ) ;
#6 = COORDINATED_UNIVERSAL_TIME_OFFSET ( 8, 0, .AHEAD. ) ;
#7 = PERSON_AND_ORGANIZATION_ROLE ( 'design_owner' ) ;
#8 = DESIGN_CONTEXT ( 'detailed design', #51, 'design' ) ;
#9 = CC_DESIGN_SECURITY_CLASSIFICATION ( #123, ( #91 ) ) ;
#10 = PERSON_AND_ORGANIZATION ( #47, #38 ) ;
#11 = ADVANCED_FACE ( 'NONE', ( #133 ), #145, .F. ) ;
#12 = DIRECTION ( 'NONE',  ( -0.000000000000000000, 0.000000000000000000, 1.000000000000000000 ) ) ;
#13 = EDGE_LOOP ( 'NONE', ( #119, #57, #117, #59 ) ) ;
#14 = DIRECTION ( 'NONE',  ( 0.000000000000000000, 0.000000000000000000, 1.000000000000000000 ) ) ;
#15 = CARTESIAN_POINT ( 'NONE',  ( 1.999999999999999556, 6.349999999999999645, 0.000000000000000000 ) ) ;
#16 = LOCAL_TIME ( 17, 25, 0.000000000000000000, #81 ) ;
#17 =( NAMED_UNIT ( * ) PLANE_ANGLE_UNIT ( ) SI_UNIT ( $, .RADIAN. ) );
#18 = PERSON_AND_ORGANIZATION ( #47, #38 ) ;
#19 = DIRECTION ( 'NONE',  ( -1.000000000000000000, -0.000000000000000000, -0.000000000000000000 ) ) ;
#20 = EDGE_CURVE ( 'NONE', #116, #23, #4, .T. ) ;
#21 = LOCAL_TIME ( 17, 25, 0.000000000000000000, #64 ) ;
#22 = CALENDAR_DATE ( 2020, 22, 12 ) ;
#23 = VERTEX_POINT ( 'NONE', #84 ) ;
#24 = CC_DESIGN_PERSON_AND_ORGANIZATION_ASSIGNMENT ( #92, #36, ( #91 ) ) ;
#25 = AXIS2_PLACEMENT_3D ( 'NONE', #61, #49, #48 ) ;
#26 = LOCAL_TIME ( 17, 25, 0.000000000000000000, #6 ) ;
#27 = CARTESIAN_POINT ( 'NONE',  ( 0.000000000000000000, 0.000000000000000000, 6.349999999999999645 ) ) ;
#28 = CIRCLE ( 'NONE', #134, 6.349999999999999645 ) ;
#29 = APPROVAL_PERSON_ORGANIZATION ( #50, #106, #3 ) ;
#30 = DATE_AND_TIME ( #68, #21 ) ;
#31 =( NAMED_UNIT ( * ) SI_UNIT ( $, .STERADIAN. ) SOLID_ANGLE_UNIT ( ) );
#32 = CALENDAR_DATE ( 2020, 22, 12 ) ;
#33 = EDGE_CURVE ( 'NONE', #144, #40, #28, .T. ) ;
#34 = DIRECTION ( 'NONE',  ( -1.000000000000000000, -0.000000000000000000, -0.000000000000000000 ) ) ;
#35 = PERSON_AND_ORGANIZATION ( #47, #38 ) ;
#36 = PERSON_AND_ORGANIZATION_ROLE ( 'design_supplier' ) ;
#37 = APPROVAL_DATE_TIME ( #168, #63 ) ;
#38 = ORGANIZATION ( 'UNSPECIFIED', 'UNSPECIFIED', '' ) ;
#39 = DATE_TIME_ROLE ( 'classification_date' ) ;
#40 = VERTEX_POINT ( 'NONE', #158 ) ;
#41 = EDGE_LOOP ( 'NONE', ( #71, #173 ) ) ;
#42 = CARTESIAN_POINT ( 'NONE',  ( 0.000000000000000000, 7.776507174585692163E-16, -6.349999999999999645 ) ) ;
#43 = CARTESIAN_POINT ( 'NONE',  ( 1.999999999999999112, 0.000000000000000000, 0.000000000000000000 ) ) ;
#44 = DIRECTION ( 'NONE',  ( 0.000000000000000000, 0.000000000000000000, 1.000000000000000000 ) ) ;
#45 =( LENGTH_UNIT ( ) NAMED_UNIT ( * ) SI_UNIT ( .MILLI., .METRE. ) );
#46 = CC_DESIGN_PERSON_AND_ORGANIZATION_ASSIGNMENT ( #128, #105, ( #123 ) ) ;
#47 = PERSON ( 'UNSPECIFIED', 'UNSPECIFIED', 'UNSPECIFIED', ('UNSPECIFIED'), ('UNSPECIFIED'), ('UNSPECIFIED') ) ;
#48 = DIRECTION ( 'NONE',  ( 0.000000000000000000, 0.000000000000000000, 1.000000000000000000 ) ) ;
#49 = DIRECTION ( 'NONE',  ( -1.000000000000000000, -0.000000000000000000, -0.000000000000000000 ) ) ;
#50 = PERSON_AND_ORGANIZATION ( #47, #38 ) ;
#51 = APPLICATION_CONTEXT ( 'configuration controlled 3d designs of mechanical parts and assemblies' ) ;
#52 = SECURITY_CLASSIFICATION_LEVEL ( 'unclassified' ) ;
#53 = APPROVAL_PERSON_ORGANIZATION ( #18, #63, #124 ) ;
#54 = APPROVAL ( #156, 'UNSPECIFIED' ) ;
#55 = LOCAL_TIME ( 17, 25, 0.000000000000000000, #79 ) ;
#56 = DIRECTION ( 'NONE',  ( 0.000000000000000000, 0.000000000000000000, -1.000000000000000000 ) ) ;
#57 = ORIENTED_EDGE ( 'NONE', *, *, #20, .T. ) ;
#58 = AXIS2_PLACEMENT_3D ( 'NONE', #15, #161, #12 ) ;
#59 = ORIENTED_EDGE ( 'NONE', *, *, #33, .F. ) ;
#60 = ADVANCED_FACE ( 'NONE', ( #172 ), #107, .F. ) ;
#61 = CARTESIAN_POINT ( 'NONE',  ( -4.102566777143633281E-16, 0.000000000000000000, 0.000000000000000000 ) ) ;
#62 = CIRCLE ( 'NONE', #25, 6.349999999999999645 ) ;
#63 = APPROVAL ( #77, 'UNSPECIFIED' ) ;
#64 = COORDINATED_UNIVERSAL_TIME_OFFSET ( 8, 0, .AHEAD. ) ;
#65 =( GEOMETRIC_REPRESENTATION_CONTEXT ( 3 ) GLOBAL_UNCERTAINTY_ASSIGNED_CONTEXT ( ( #86 ) ) GLOBAL_UNIT_ASSIGNED_CONTEXT ( ( #45, #17, #31 ) ) REPRESENTATION_CONTEXT ( 'NONE', 'WORKASPACE' ) );
#66 = CARTESIAN_POINT ( 'NONE',  ( 0.000000000000000000, 0.000000000000000000, 0.000000000000000000 ) ) ;
#67 = DIRECTION ( 'NONE',  ( -1.000000000000000000, -0.000000000000000000, -0.000000000000000000 ) ) ;
#68 = CALENDAR_DATE ( 2020, 22, 12 ) ;
#69 = DATE_AND_TIME ( #70, #16 ) ;
#70 = CALENDAR_DATE ( 2020, 22, 12 ) ;
#71 = ORIENTED_EDGE ( 'NONE', *, *, #174, .T. ) ;
#72 = CC_DESIGN_APPROVAL ( #106, ( #100 ) ) ;
#73 = CIRCLE ( 'NONE', #163, 6.349999999999999645 ) ;
#74 = ORIENTED_EDGE ( 'NONE', *, *, #2, .T. ) ;
#75 = CARTESIAN_POINT ( 'NONE',  ( 1.999999999999999112, 7.776507174585692163E-16, -6.349999999999999645 ) ) ;
#76 = PRODUCT_DEFINITION_SHAPE ( 'NONE', 'NONE',  #100 ) ;
#77 = APPROVAL_STATUS ( 'not_yet_approved' ) ;
#78 = DIRECTION ( 'NONE',  ( 0.000000000000000000, 0.000000000000000000, 1.000000000000000000 ) ) ;
#79 = COORDINATED_UNIVERSAL_TIME_OFFSET ( 8, 0, .AHEAD. ) ;
#80 = AXIS2_PLACEMENT_3D ( 'NONE', #66, #87, #89 ) ;
#81 = COORDINATED_UNIVERSAL_TIME_OFFSET ( 8, 0, .AHEAD. ) ;
#82 = APPLICATION_CONTEXT ( 'configuration controlled 3d designs of mechanical parts and assemblies' ) ;
#83 = DIRECTION ( 'NONE',  ( -1.000000000000000000, -0.000000000000000000, -0.000000000000000000 ) ) ;
#84 = CARTESIAN_POINT ( 'NONE',  ( 1.999999999999999112, 0.000000000000000000, 6.349999999999999645 ) ) ;
#85 = CYLINDRICAL_SURFACE ( 'NONE', #122, 6.349999999999999645 ) ;
#86 = UNCERTAINTY_MEASURE_WITH_UNIT (LENGTH_MEASURE( 1.000000000000000082E-05 ), #45, 'distance_accuracy_value', 'NONE');
#87 = DIRECTION ( 'NONE',  ( 0.000000000000000000, 0.000000000000000000, 1.000000000000000000 ) ) ;
#88 = DATE_AND_TIME ( #32, #135 ) ;
#89 = DIRECTION ( 'NONE',  ( 1.000000000000000000, 0.000000000000000000, 0.000000000000000000 ) ) ;
#90 = APPLICATION_PROTOCOL_DEFINITION ( 'international standard', 'config_control_design', 1994, #82 ) ;
#91 = PRODUCT_DEFINITION_FORMATION_WITH_SPECIFIED_SOURCE ( 'ANY', '', #166, .NOT_KNOWN. ) ;
#92 = PERSON_AND_ORGANIZATION ( #47, #38 ) ;
#93 = EDGE_CURVE ( 'NONE', #23, #40, #146, .T. ) ;
#94 = EDGE_LOOP ( 'NONE', ( #175, #74, #99, #132 ) ) ;
#95 = ADVANCED_BREP_SHAPE_REPRESENTATION ( 'MHWP-12.7-514.5', ( #111, #80 ), #65 ) ;
#96 = DIRECTION ( 'NONE',  ( 0.000000000000000000, 0.000000000000000000, 1.000000000000000000 ) ) ;
#97 = CC_DESIGN_DATE_AND_TIME_ASSIGNMENT ( #88, #138, ( #100 ) ) ;
#98 = DIRECTION ( 'NONE',  ( 1.000000000000000000, 0.000000000000000000, 0.000000000000000000 ) ) ;
#99 = ORIENTED_EDGE ( 'NONE', *, *, #174, .F. ) ;
#100 = PRODUCT_DEFINITION ( 'UNKNOWN', '', #91, #8 ) ;
#101 = DIRECTION ( 'NONE',  ( 0.000000000000000000, 0.000000000000000000, 1.000000000000000000 ) ) ;
#102 = APPROVAL_STATUS ( 'not_yet_approved' ) ;
#103 = CLOSED_SHELL ( 'NONE', ( #142, #121, #11, #60 ) ) ;
#104 = AXIS2_PLACEMENT_3D ( 'NONE', #154, #19, #101 ) ;
#105 = PERSON_AND_ORGANIZATION_ROLE ( 'classification_officer' ) ;
#106 = APPROVAL ( #102, 'UNSPECIFIED' ) ;
#107 = PLANE ( 'NONE',  #125 ) ;
#108 = LINE ( 'NONE', #42, #129 ) ;
#109 = ORIENTED_EDGE ( 'NONE', *, *, #140, .F. ) ;
#110 = PERSON_AND_ORGANIZATION_ROLE ( 'creator' ) ;
#111 = MANIFOLD_SOLID_BREP ( 'Ðý×', #103 ) ;
#112 = APPLICATION_PROTOCOL_DEFINITION ( 'international standard', 'config_control_design', 1994, #51 ) ;
#113 = APPROVAL_DATE_TIME ( #30, #106 ) ;
#114 = CC_DESIGN_PERSON_AND_ORGANIZATION_ASSIGNMENT ( #10, #157, ( #91 ) ) ;
#115 = CARTESIAN_POINT ( 'NONE',  ( -4.102566777143633281E-16, 0.000000000000000000, 0.000000000000000000 ) ) ;
#116 = VERTEX_POINT ( 'NONE', #75 ) ;
#117 = ORIENTED_EDGE ( 'NONE', *, *, #93, .T. ) ;
#118 = FACE_OUTER_BOUND ( 'NONE', #13, .T. ) ;
#119 = ORIENTED_EDGE ( 'NONE', *, *, #2, .F. ) ;
#120 = CARTESIAN_POINT ( 'NONE',  ( -4.102566777143633281E-16, 7.776507174585692163E-16, -6.349999999999999645 ) ) ;
#121 = ADVANCED_FACE ( 'NONE', ( #118 ), #152, .T. ) ;
#122 = AXIS2_PLACEMENT_3D ( 'NONE', #164, #34, #44 ) ;
#123 = SECURITY_CLASSIFICATION ( '', '', #52 ) ;
#124 = APPROVAL_ROLE ( '' ) ;
#125 = AXIS2_PLACEMENT_3D ( 'NONE', #159, #98, #56 ) ;
#126 = APPROVAL_PERSON_ORGANIZATION ( #35, #54, #130 ) ;
#127 = CALENDAR_DATE ( 2020, 22, 12 ) ;
#128 = PERSON_AND_ORGANIZATION ( #47, #38 ) ;
#129 = VECTOR ( 'NONE', #160, 1000.000000000000000 ) ;
#130 = APPROVAL_ROLE ( '' ) ;
#131 = CC_DESIGN_PERSON_AND_ORGANIZATION_ASSIGNMENT ( #137, #7, ( #166 ) ) ;
#132 = ORIENTED_EDGE ( 'NONE', *, *, #93, .F. ) ;
#133 = FACE_OUTER_BOUND ( 'NONE', #148, .T. ) ;
#134 = AXIS2_PLACEMENT_3D ( 'NONE', #115, #171, #96 ) ;
#135 = LOCAL_TIME ( 17, 25, 0.000000000000000000, #153 ) ;
#136 = DIRECTION ( 'NONE',  ( -1.000000000000000000, -0.000000000000000000, -0.000000000000000000 ) ) ;
#137 = PERSON_AND_ORGANIZATION ( #47, #38 ) ;
#138 = DATE_TIME_ROLE ( 'creation_date' ) ;
#139 = CC_DESIGN_APPROVAL ( #54, ( #123 ) ) ;
#140 = EDGE_CURVE ( 'NONE', #23, #116, #73, .T. ) ;
#141 = SHAPE_DEFINITION_REPRESENTATION ( #76, #95 ) ;
#142 = ADVANCED_FACE ( 'NONE', ( #5 ), #85, .T. ) ;
#143 = CC_DESIGN_APPROVAL ( #63, ( #91 ) ) ;
#144 = VERTEX_POINT ( 'NONE', #120 ) ;
#145 = PLANE ( 'NONE',  #58 ) ;
#146 = LINE ( 'NONE', #27, #149 ) ;
#147 = CC_DESIGN_DATE_AND_TIME_ASSIGNMENT ( #69, #39, ( #123 ) ) ;
#148 = EDGE_LOOP ( 'NONE', ( #109, #170 ) ) ;
#149 = VECTOR ( 'NONE', #83, 1000.000000000000000 ) ;
#150 = CARTESIAN_POINT ( 'NONE',  ( 1.999999999999999112, 0.000000000000000000, 0.000000000000000000 ) ) ;
#151 = CC_DESIGN_PERSON_AND_ORGANIZATION_ASSIGNMENT ( #1, #110, ( #100 ) ) ;
#152 = CYLINDRICAL_SURFACE ( 'NONE', #104, 6.349999999999999645 ) ;
#153 = COORDINATED_UNIVERSAL_TIME_OFFSET ( 8, 0, .AHEAD. ) ;
#154 = CARTESIAN_POINT ( 'NONE',  ( 0.000000000000000000, 0.000000000000000000, 0.000000000000000000 ) ) ;
#155 = DATE_AND_TIME ( #22, #55 ) ;
#156 = APPROVAL_STATUS ( 'not_yet_approved' ) ;
#157 = PERSON_AND_ORGANIZATION_ROLE ( 'creator' ) ;
#158 = CARTESIAN_POINT ( 'NONE',  ( -4.102566777143633281E-16, 0.000000000000000000, 6.349999999999999645 ) ) ;
#159 = CARTESIAN_POINT ( 'NONE',  ( -2.051283388571816641E-16, 6.349999999999999645, 0.000000000000000000 ) ) ;
#160 = DIRECTION ( 'NONE',  ( -1.000000000000000000, -0.000000000000000000, -0.000000000000000000 ) ) ;
#161 = DIRECTION ( 'NONE',  ( -1.000000000000000000, 0.000000000000000000, -0.000000000000000000 ) ) ;
#162 = PRODUCT_RELATED_PRODUCT_CATEGORY ( 'detail', '', ( #166 ) ) ;
#163 = AXIS2_PLACEMENT_3D ( 'NONE', #150, #67, #78 ) ;
#164 = CARTESIAN_POINT ( 'NONE',  ( 0.000000000000000000, 0.000000000000000000, 0.000000000000000000 ) ) ;
#165 = MECHANICAL_CONTEXT ( 'NONE', #82, 'mechanical' ) ;
#166 = PRODUCT ( 'MHWP-12.7-514.5', 'MHWP-12.7-514.5', '', ( #165 ) ) ;
#167 = AXIS2_PLACEMENT_3D ( 'NONE', #43, #136, #14 ) ;
#168 = DATE_AND_TIME ( #127, #26 ) ;
#169 = APPROVAL_DATE_TIME ( #155, #54 ) ;
#170 = ORIENTED_EDGE ( 'NONE', *, *, #20, .F. ) ;
#171 = DIRECTION ( 'NONE',  ( -1.000000000000000000, -0.000000000000000000, -0.000000000000000000 ) ) ;
#172 = FACE_OUTER_BOUND ( 'NONE', #41, .T. ) ;
#173 = ORIENTED_EDGE ( 'NONE', *, *, #33, .T. ) ;
#174 = EDGE_CURVE ( 'NONE', #40, #144, #62, .T. ) ;
#175 = ORIENTED_EDGE ( 'NONE', *, *, #140, .T. ) ;
ENDSEC;
END-ISO-10303-21;
